  0
SECTION
  2
HEADER
  9
$ACADVER
  1
AC1009
  9
$INSBASE
 10
75.11548541683865
 20
48.00267078436397
 30
0.0
  9
$EXTMIN
 10
75.11548541683865
 20
48.00267078436397
 30
0.0
  9
$EXTMAX
 10
178.6655709209587
 20
93.98141530457591
 30
0.0
  9
$LIMMIN
 10
32.61719999902881
 20
43.29629406080618
  9
$LIMMAX
 10
154.3027062257409
 20
142.9011190251877
  9
$ORTHOMODE
 70
     0
  9
$REGENMODE
 70
     1
  9
$FILLMODE
 70
     1
  9
$QTEXTMODE
 70
     0
  9
$MIRRTEXT
 70
     1
  9
$DRAGMODE
 70
     2
  9
$LTSCALE
 40
1.0
  9
$OSMODE
 70
     0
  9
$ATTMODE
 70
     1
  9
$TEXTSIZE
 40
0.2
  9
$TRACEWID
 40
0.05
  9
$TEXTSTYLE
  7
STANDARD
  9
$CLAYER
  8
ITEM_50
  9
$CELTYPE
  6
BYLAYER
  9
$CECOLOR
 62
   256
  9
$DIMSCALE
 40
1.0
  9
$DIMASZ
 40
0.18
  9
$DIMEXO
 40
0.0625
  9
$DIMDLI
 40
0.38
  9
$DIMRND
 40
0.0
  9
$DIMDLE
 40
0.0
  9
$DIMEXE
 40
0.18
  9
$DIMTP
 40
0.0
  9
$DIMTM
 40
0.0
  9
$DIMTXT
 40
0.18
  9
$DIMCEN
 40
0.09
  9
$DIMTSZ
 40
0.0
  9
$DIMTOL
 70
     0
  9
$DIMLIM
 70
     0
  9
$DIMTIH
 70
     1
  9
$DIMTOH
 70
     1
  9
$DIMSE1
 70
     0
  9
$DIMSE2
 70
     0
  9
$DIMTAD
 70
     0
  9
$DIMZIN
 70
     0
  9
$DIMBLK
  1

  9
$DIMASO
 70
     1
  9
$DIMSHO
 70
     0
  9
$DIMPOST
  1

  9
$DIMAPOST
  1

  9
$DIMALT
 70
     0
  9
$DIMALTD
 70
     2
  9
$DIMALTF
 40
25.39999999999999
  9
$DIMLFAC
 40
1.0
  9
$DIMTOFL
 70
     0
  9
$DIMTVP
 40
0.0
  9
$DIMTIX
 70
     0
  9
$DIMSOXD
 70
     0
  9
$DIMSAH
 70
     0
  9
$DIMBLK1
  1

  9
$DIMBLK2
  1

  9
$DIMSTYLE
  2
*UNNAMED
  9
$DIMCLRD
 70
     0
  9
$DIMCLRE
 70
     0
  9
$DIMCLRT
 70
     0
  9
$DIMTFAC
 40
1.0
  9
$DIMGAP
 40
0.09
  9
$LUNITS
 70
     2
  9
$LUPREC
 70
     4
  9
$SKETCHINC
 40
0.1
  9
$FILLETRAD
 40
0.2
  9
$AUNITS
 70
     0
  9
$AUPREC
 70
     0
  9
$MENU
  1

  9
$ELEVATION
 40
0.0
  9
$PELEVATION
 40
0.0
  9
$THICKNESS
 40
0.0
  9
$LIMCHECK
 70
     0
  9
$BLIPMODE
 70
     0
  9
$CHAMFERA
 40
0.0
  9
$CHAMFERB
 40
0.0
  9
$SKPOLY
 70
     0
  9
$TDCREATE
 40
2448741.454291666
  9
$TDUPDATE
 40
2449393.439340972
  9
$TDINDWG
 40
0.0914171296
  9
$TDUSRTIMER
 40
0.0914171296
  9
$USRTIMER
 70
     1
  9
$ANGBASE
 50
0.0
  9
$ANGDIR
 70
     0
  9
$PDMODE
 70
     0
  9
$PDSIZE
 40
0.0
  9
$PLINEWID
 40
0.0
  9
$COORDS
 70
     0
  9
$SPLFRAME
 70
     0
  9
$SPLINETYPE
 70
     6
  9
$SPLINESEGS
 70
     8
  9
$ATTDIA
 70
     0
  9
$ATTREQ
 70
     1
  9
$HANDLING
 70
     1
  9
$HANDSEED
  5
208
  9
$SURFTAB1
 70
     6
  9
$SURFTAB2
 70
     6
  9
$SURFTYPE
 70
     6
  9
$SURFU
 70
     6
  9
$SURFV
 70
     6
  9
$UCSNAME
  2

  9
$UCSORG
 10
0.0
 20
0.0
 30
0.0
  9
$UCSXDIR
 10
1.0
 20
0.0
 30
0.0
  9
$UCSYDIR
 10
0.0
 20
1.0
 30
0.0
  9
$PUCSNAME
  2

  9
$PUCSORG
 10
0.0
 20
0.0
 30
0.0
  9
$PUCSXDIR
 10
1.0
 20
0.0
 30
0.0
  9
$PUCSYDIR
 10
0.0
 20
1.0
 30
0.0
  9
$USERI1
 70
     0
  9
$USERI2
 70
     0
  9
$USERI3
 70
     0
  9
$USERI4
 70
     0
  9
$USERI5
 70
     0
  9
$USERR1
 40
0.0
  9
$USERR2
 40
0.0
  9
$USERR3
 40
0.0
  9
$USERR4
 40
0.0
  9
$USERR5
 40
0.0
  9
$WORLDVIEW
 70
     1
  9
$SHADEDGE
 70
     3
  9
$SHADEDIF
 70
    70
  9
$TILEMODE
 70
     1
  9
$MAXACTVP
 70
    16
  9
$PINSBASE
 10
0.0
 20
0.0
 30
0.0
  9
$PLIMCHECK
 70
     0
  9
$PEXTMIN
 10
1.000000000000000E+20
 20
1.000000000000000E+20
 30
1.000000000000000E+20
  9
$PEXTMAX
 10
-1.000000000000000E+20
 20
-1.000000000000000E+20
 30
-1.000000000000000E+20
  9
$PLIMMIN
 10
0.0
 20
0.0
  9
$PLIMMAX
 10
12.0
 20
9.0
  9
$UNITMODE
 70
     0
  9
$VISRETAIN
 70
     0
  9
$PLINEGEN
 70
     0
  9
$PSLTSCALE
 70
     0
  9
$TREEDEPTH
 70
  3020
  9
$DWGCODEPAGE
  3
undefined
  0
ENDSEC
  0
SECTION
  2
TABLES
  0
TABLE
  2
VPORT
 70
     2
  0
VPORT
  2
*ACTIVE
 70
     0
 10
0.0
 20
0.0
 11
1.0
 21
1.0
 12
126.8905281688986
 22
88.58903904339408
 13
0.0
 23
0.0
 14
1.0
 24
1.0
 15
0.0
 25
0.0
 16
0.0
 26
0.0
 36
1.0
 17
0.0
 27
0.0
 37
0.0
 40
81.17273651806021
 41
1.275675675675675
 42
50.0
 43
0.0
 44
0.0
 50
0.0
 51
0.0
 71
     0
 72
   100
 73
     1
 74
     1
 75
     0
 76
     0
 77
     0
 78
     0
  0
ENDTAB
  0
TABLE
  2
LTYPE
 70
     2
  0
LTYPE
  2
CONTINUOUS
 70
    64
  3
Ausgezogene Linie
 72
    65
 73
     0
 40
0.0
  0
LTYPE
  2
ITEM-STRICHPUNKT
 70
    64
  3
__ . __ . __
 72
    65
 73
     4
 40
3.599999999999999
 49
2.399999999999999
 49
-0.6
 49
0.0
 49
-0.6
  0
ENDTAB
  0
TABLE
  2
LAYER
 70
     4
  0
LAYER
  2
0
 70
    64
 62
     7
  6
CONTINUOUS
  0
LAYER
  2
ITEM_25
 70
    64
 62
     3
  6
CONTINUOUS
  0
LAYER
  2
ITEM_STP
 70
    64
 62
     4
  6
ITEM-STRICHPUNKT
  0
LAYER
  2
ITEM_50
 70
    64
 62
     7
  6
CONTINUOUS
  0
ENDTAB
  0
TABLE
  2
STYLE
 70
     1
  0
STYLE
  2
STANDARD
 70
     0
 40
0.0
 41
1.0
 50
0.0
 71
     0
 42
0.2
  3
txt
  4

  0
ENDTAB
  0
TABLE
  2
VIEW
 70
     0
  0
ENDTAB
  0
TABLE
  2
UCS
 70
     0
  0
ENDTAB
  0
TABLE
  2
APPID
 70
     1
  0
APPID
  2
ACAD
 70
    64
  0
ENDTAB
  0
TABLE
  2
DIMSTYLE
 70
     0
  0
ENDTAB
  0
ENDSEC
  0
SECTION
  2
BLOCKS
  0
ENDSEC
  0
SECTION
  2
ENTITIES
  0
ARC
  8
ITEM_50
  5
2
 10
126.8905281688986
 20
88.78131013808646
 30
0.0
 40
8.5
 50
332.6887819721853
 51
27.31121802782034
  0
LINE
  8
ITEM_50
  5
3
 10
119.3380451334988
 20
84.88131013808694
 30
0.0
 11
123.9405281688978
 21
84.88131013808694
 31
0.0
  0
LINE
  8
ITEM_50
  5
4
 10
119.3380451334991
 20
92.68131013808678
 30
0.0
 11
120.890528168899
 21
92.68131013808678
 31
0.0
  0
ARC
  8
ITEM_50
  5
5
 10
126.8905281688986
 20
88.78131013808646
 30
0.0
 40
8.5
 50
152.6887819721796
 51
207.3112180278145
  0
LINE
  8
ITEM_STP
  5
10
 10
102.2510227015639
 20
88.78131013808648
 30
0.0
 11
75.11548541683865
 21
88.78131013808646
 31
0.0
  0
LINE
  8
ITEM_25
  5
11
 10
88.06393177214366
 20
87.21081013808648
 30
0.0
 11
92.36393177214272
 21
87.21081013808648
 31
0.0
  0
CIRCLE
  8
ITEM_50
  5
12
 10
126.8905281688986
 20
88.78131013808646
 30
0.0
 40
1.62
  0
LINE
  8
ITEM_50
  5
13
 10
122.8905281688986
 20
84.88131013808694
 30
0.0
 11
122.8905281688986
 21
85.9313101380861
 31
0.0
  0
LINE
  8
ITEM_STP
  5
14
 10
126.8905281688986
 20
83.37519604237414
 30
0.0
 11
126.8905281688986
 21
93.98141530457591
 31
0.0
  0
LINE
  8
ITEM_STP
  5
15
 10
117.2501426966495
 20
88.78131013808646
 30
0.0
 11
136.3332589622523
 21
88.78131013808646
 31
0.0
  0
LINE
  8
ITEM_50
  5
16
 10
76.06393177214367
 20
84.53131013808646
 30
0.0
 11
76.06393177214367
 21
93.03131013808648
 31
0.0
  0
LINE
  8
ITEM_50
  5
17
 10
88.06393177214367
 20
84.53131013808646
 30
0.0
 11
88.06393177214367
 21
90.03131013808652
 31
0.0
  0
LINE
  8
ITEM_50
  5
18
 10
76.06393177214367
 20
93.03131013808646
 30
0.0
 11
88.06393177214367
 21
93.03131013808646
 31
0.0
  0
LINE
  8
ITEM_50
  5
19
 10
76.06393177214367
 20
84.53131013808646
 30
0.0
 11
88.06393177214367
 21
84.53131013808646
 31
0.0
  0
LINE
  8
ITEM_50
  5
1A
 10
88.06393177214367
 20
90.03131013808646
 30
0.0
 11
89.22889171284019
 21
90.03131013808646
 31
0.0
  0
LINE
  8
ITEM_STP
  5
1B
 10
82.06393177214367
 20
93.78740875797397
 30
0.0
 11
82.06393177214367
 21
83.69246992774425
 31
0.0
  0
LINE
  8
ITEM_50
  5
2C
 10
88.06393177214367
 20
92.83131013808642
 30
0.0
 11
88.06393177214367
 21
93.03131013808648
 31
0.0
  0
LINE
  8
ITEM_50
  5
2F
 10
120.890528168899
 20
93.03131013808646
 30
0.0
 11
132.890528168899
 21
93.03131013808646
 31
0.0
  0
LINE
  8
ITEM_50
  5
30
 10
124.2905281688983
 20
84.53131013808645
 30
0.0
 11
129.490528168899
 21
84.53131013808646
 31
0.0
  0
LINE
  8
ITEM_50
  5
31
 10
120.890528168899
 20
93.03131013808646
 30
0.0
 11
120.890528168899
 21
87.9313101380857
 31
0.0
  0
LINE
  8
ITEM_50
  5
32
 10
132.890528168899
 20
93.03131013808646
 30
0.0
 11
132.890528168899
 21
87.9313101380865
 31
0.0
  0
LINE
  8
ITEM_50
  5
33
 10
129.490528168899
 20
84.53131013808648
 30
0.0
 11
132.890528168899
 21
87.93131013808648
 31
0.0
  0
LINE
  8
ITEM_50
  5
34
 10
124.2905281688983
 20
84.53131013808648
 30
0.0
 11
120.8905281688982
 21
87.93131013808648
 31
0.0
  0
LINE
  8
ITEM_50
  5
35
 10
124.840528168899
 20
92.38131013808684
 30
0.0
 11
128.940528168899
 21
92.38131013808684
 31
0.0
  0
LINE
  8
ITEM_50
  5
36
 10
128.940528168899
 20
92.38131013808684
 30
0.0
 11
131.050528168899
 21
88.78131013808648
 31
0.0
  0
LINE
  8
ITEM_50
  5
37
 10
131.050528168899
 20
88.78131013808648
 30
0.0
 11
128.940528168899
 21
85.18131013808685
 31
0.0
  0
LINE
  8
ITEM_50
  5
38
 10
128.940528168899
 20
85.18131013808685
 30
0.0
 11
124.840528168899
 21
85.18131013808685
 31
0.0
  0
LINE
  8
ITEM_50
  5
39
 10
124.840528168899
 20
85.18131013808685
 30
0.0
 11
122.730528168899
 21
88.78131013808648
 31
0.0
  0
LINE
  8
ITEM_50
  5
3A
 10
122.730528168899
 20
88.78131013808648
 30
0.0
 11
124.840528168899
 21
92.38131013808684
 31
0.0
  0
CIRCLE
  8
ITEM_50
  5
3B
 10
126.8905281688986
 20
88.78131013808646
 30
0.0
 40
3.5
  0
LINE
  8
ITEM_25
  5
75
 10
89.57436369681497
 20
90.35180999684529
 30
0.0
 11
90.15349984674715
 21
90.35180999684529
 31
0.0
  0
LINE
  8
ITEM_50
  5
78
 10
122.8905281688986
 20
70.08475322981168
 30
0.0
 11
122.8905281688986
 21
65.884753229812
 31
0.0
  0
LINE
  8
ITEM_50
  5
79
 10
122.8905281688986
 20
65.884753229812
 30
0.0
 11
124.2905281688989
 21
65.884753229812
 31
0.0
  0
LINE
  8
ITEM_50
  5
7A
 10
124.2905281688989
 20
67.58475322981199
 30
0.0
 11
129.4905281688983
 21
67.58475322981199
 31
0.0
  0
LINE
  8
ITEM_50
  5
7B
 10
122.8905281688986
 20
75.384753229812
 30
0.0
 11
130.8905281688986
 21
75.384753229812
 31
0.0
  0
LINE
  8
ITEM_50
  5
7C
 10
118.3905281688983
 20
70.88475322981169
 30
0.0
 11
122.8905281688986
 21
75.384753229812
 31
0.0
  0
LINE
  8
ITEM_50
  5
7D
 10
118.3905281688983
 20
70.88475322981169
 30
0.0
 11
118.3905281688983
 21
70.08475322981168
 31
0.0
  0
LINE
  8
ITEM_50
  5
7E
 10
118.3905281688983
 20
70.08475322981168
 30
0.0
 11
122.8905281688986
 21
70.08475322981168
 31
0.0
  0
LINE
  8
ITEM_50
  5
7F
 10
124.2905281688989
 20
65.884753229812
 30
0.0
 11
124.2905281688989
 21
67.58475322981199
 31
0.0
  0
LINE
  8
ITEM_50
  5
80
 10
119.3363086044884
 20
70.88475322981166
 30
0.0
 11
119.3363086044884
 21
70.08475322981165
 31
0.0
  0
LINE
  8
ITEM_50
  5
81
 10
118.3905281688983
 20
70.88475322981169
 30
0.0
 11
119.3363086044885
 21
70.88475322981166
 31
0.0
  0
LINE
  8
ITEM_50
  5
82
 10
119.3363086044884
 20
70.88475322981166
 30
0.0
 11
125.9999721981579
 21
75.384753229812
 31
0.0
  0
LINE
  8
ITEM_50
  5
83
 10
135.390528168899
 20
70.88475322981169
 30
0.0
 11
130.8905281688986
 21
75.384753229812
 31
0.0
  0
LINE
  8
ITEM_50
  5
84
 10
135.390528168899
 20
70.88475322981169
 30
0.0
 11
134.4447477333088
 21
70.88475322981166
 31
0.0
  0
LINE
  8
ITEM_50
  5
85
 10
135.390528168899
 20
70.88475322981169
 30
0.0
 11
135.390528168899
 21
70.08475322981168
 31
0.0
  0
LINE
  8
ITEM_50
  5
86
 10
135.390528168899
 20
70.08475322981168
 30
0.0
 11
130.8905281688986
 21
70.08475322981168
 31
0.0
  0
LINE
  8
ITEM_50
  5
87
 10
134.4447477333088
 20
70.88475322981166
 30
0.0
 11
134.4447477333088
 21
70.08475322981165
 31
0.0
  0
LINE
  8
ITEM_50
  5
88
 10
134.4447477333088
 20
70.88475322981166
 30
0.0
 11
127.7810841396393
 21
75.384753229812
 31
0.0
  0
LINE
  8
ITEM_50
  5
89
 10
130.8905281688986
 20
70.08475322981168
 30
0.0
 11
130.8905281688986
 21
65.884753229812
 31
0.0
  0
LINE
  8
ITEM_50
  5
8A
 10
130.8905281688986
 20
65.884753229812
 30
0.0
 11
129.4905281688983
 21
65.884753229812
 31
0.0
  0
LINE
  8
ITEM_50
  5
8B
 10
129.4905281688983
 20
65.884753229812
 30
0.0
 11
129.4905281688983
 21
67.58475322981199
 31
0.0
  0
LINE
  8
ITEM_50
  5
BB
 10
124.3905281688986
 20
63.91979329122937
 30
0.0
 11
129.3905281688986
 21
63.91979329122937
 31
0.0
  0
LINE
  8
ITEM_50
  5
BC
 10
124.3905281688986
 20
62.84971317093282
 30
0.0
 11
129.3905281688986
 21
62.84971317093282
 31
0.0
  0
LINE
  8
ITEM_50
  5
BF
 10
129.3905281688986
 20
63.38475322981198
 30
0.0
 11
124.3905281688986
 21
63.38475322981198
 31
0.0
  0
ARC
  8
ITEM_50
  5
C0
 10
129.1905281688986
 20
66.584753229812
 30
0.0
 40
0.2
 50
0.0
 51
90.0
  0
ARC
  8
ITEM_50
  5
C1
 10
124.5905281688986
 20
66.584753229812
 30
0.0
 40
0.2
 50
90.0
 51
180.0
  0
LINE
  8
ITEM_50
  5
C2
 10
129.3905281688986
 20
66.584753229812
 30
0.0
 11
129.3905281688986
 21
61.03910928712985
 31
0.0
  0
LINE
  8
ITEM_50
  5
C3
 10
124.3905281688986
 20
66.584753229812
 30
0.0
 11
124.3905281688986
 21
61.03910928712985
 31
0.0
  0
LINE
  8
ITEM_50
  5
C4
 10
129.1905281688986
 20
66.78475322981199
 30
0.0
 11
124.5905281688986
 21
66.78475322981199
 31
0.0
  0
CIRCLE
  8
ITEM_50
  5
C5
 10
126.8905281688986
 20
55.58475322981198
 30
0.0
 40
6.0
  0
LINE
  8
ITEM_STP
  5
C6
 10
126.8905281688986
 20
48.00267078436397
 30
0.0
 11
126.8905281688986
 21
75.56232872637605
 31
0.0
  0
LINE
  8
ITEM_STP
  5
C7
 10
120.1853487711878
 20
55.58475322981198
 30
0.0
 11
133.4809300898641
 21
55.58475322981197
 31
0.0
  0
LINE
  8
ITEM_50
  5
D4
 10
101.6639317721427
 20
92.68131013808194
 30
0.0
 11
96.56393177214239
 21
92.68131013808257
 31
0.0
  0
LINE
  8
ITEM_50
  5
D5
 10
96.56393177214239
 20
92.68131013808257
 30
0.0
 11
96.56393177214239
 21
84.88131013808255
 31
0.0
  0
LINE
  8
ITEM_50
  5
D6
 10
96.56393177214239
 20
84.88131013808255
 30
0.0
 11
101.6639317721426
 21
84.88131013808192
 31
0.0
  0
LINE
  8
ITEM_50
  5
D7
 10
101.8639317721427
 20
85.08131013808193
 30
0.0
 11
101.8639317721427
 21
92.48131013808193
 31
0.0
  0
LINE
  8
ITEM_50
  5
D8
 10
97.3639317721424
 20
84.88131013808245
 30
0.0
 11
97.3639317721424
 21
92.68131013808248
 31
0.0
  0
ARC
  8
ITEM_50
  5
D9
 10
101.6639317721427
 20
92.48131013808193
 30
0.0
 40
0.2
 50
0.0
 51
89.99999999999292
  0
ARC
  8
ITEM_50
  5
DA
 10
101.6639317721427
 20
85.08131013808193
 30
0.0
 40
0.2
 50
269.999999999993
 51
0.0
  0
LINE
  8
ITEM_50
  5
DE
 10
96.56393177214239
 20
84.88131013808255
 30
0.0
 11
92.36393177214272
 21
84.88131013808308
 31
0.0
  0
LINE
  8
ITEM_50
  5
DF
 10
92.36393177214272
 20
84.88131013808308
 30
0.0
 11
92.36393177214272
 21
92.68131013808309
 31
0.0
  0
LINE
  8
ITEM_50
  5
E0
 10
92.36393177214272
 20
92.68131013808309
 30
0.0
 11
96.56393177214239
 21
92.68131013808257
 31
0.0
  0
POLYLINE
  8
ITEM_50
  5
E1
 66
     1
 10
0.0
 20
0.0
 30
0.0
  0
VERTEX
  8
ITEM_50
  5
E2
 10
88.06393177214367
 20
86.78131013808649
 30
0.0
 50
90.0
  0
VERTEX
  8
ITEM_50
  5
E3
 10
92.3639317721427
 20
86.78131013808649
 30
0.0
 50
90.0
  0
SEQEND
  8
ITEM_50
  5
E4
  0
LINE
  8
ITEM_50
  5
F6
 10
132.890528168899
 20
92.6813101380868
 30
0.0
 11
134.4430112042981
 21
92.68131013808678
 31
0.0
  0
LINE
  8
ITEM_50
  5
F7
 10
88.06393177214366
 20
87.21080999684518
 30
0.0
 11
88.06393177214366
 21
86.66532472114201
 31
0.0
  0
LINE
  8
ITEM_50
  5
100
 10
129.8405281688995
 20
84.88131013808693
 30
0.0
 11
134.4430112042985
 21
84.88131013808693
 31
0.0
  0
LINE
  8
ITEM_50
  5
102
 10
126.1405281688986
 20
90.08034824376312
 30
0.0
 11
125.3905281688986
 21
88.78131013808646
 31
0.0
  0
LINE
  8
ITEM_50
  5
103
 10
125.3905281688986
 20
88.78131013808646
 30
0.0
 11
126.1405281688986
 21
87.48227203240981
 31
0.0
  0
LINE
  8
ITEM_50
  5
104
 10
126.1405281688986
 20
87.48227203240981
 30
0.0
 11
127.6405281688986
 21
87.48227203240981
 31
0.0
  0
LINE
  8
ITEM_50
  5
105
 10
127.6405281688986
 20
87.48227203240981
 30
0.0
 11
128.3905281688986
 21
88.78131013808646
 31
0.0
  0
LINE
  8
ITEM_50
  5
106
 10
128.3905281688986
 20
88.78131013808646
 30
0.0
 11
127.6405281688986
 21
90.08034824376312
 31
0.0
  0
LINE
  8
ITEM_50
  5
107
 10
127.6405281688986
 20
90.08034824376312
 30
0.0
 11
126.1405281688986
 21
90.08034824376312
 31
0.0
  0
LINE
  8
0
  5
16C
 10
88.06393177214367
 20
90.03131013808646
 30
0.0
 11
89.22889171284019
 21
90.03131013808646
 31
0.0
  0
LINE
  8
ITEM_50
  5
16E
 10
94.06393177214405
 20
92.68131013808289
 30
0.0
 11
94.06393177214404
 21
92.83131013808642
 31
0.0
  0
LINE
  8
ITEM_50
  5
16F
 10
89.86393177178106
 20
92.13273647818945
 30
0.0
 11
89.32889171000104
 21
92.83131013808642
 31
0.0
  0
LINE
  8
ITEM_50
  5
170
 10
87.51828782946151
 20
92.83131013808642
 30
0.0
 11
89.32889171000104
 21
92.83131013808645
 31
0.0
  0
LINE
  8
ITEM_50
  5
171
 10
90.39897183356106
 20
92.83131013808645
 30
0.0
 11
94.06393177214404
 21
92.83131013808645
 31
0.0
  0
LINE
  8
ITEM_50
  5
172
 10
87.51828782946151
 20
90.03131013808652
 30
0.0
 11
89.32889171000104
 21
90.03131013808652
 31
0.0
  0
LINE
  8
ITEM_50
  5
173
 10
90.39897183356107
 20
90.03131013808646
 30
0.0
 11
92.36393177214272
 21
90.03131013808646
 31
0.0
  0
LINE
  8
ITEM_50
  5
174
 10
87.51828782946151
 20
90.03131013808652
 30
0.0
 11
87.51828782946152
 21
92.83131013808642
 31
0.0
  0
LINE
  8
ITEM_50
  5
19D
 10
89.86393177178106
 20
92.13273647818945
 30
0.0
 11
90.39897183356106
 21
92.83131013808645
 31
0.0
  0
LINE
  8
ITEM_50
  5
19E
 10
89.86393177178106
 20
90.72988379798349
 30
0.0
 11
89.32889171000104
 21
90.03131013808652
 31
0.0
  0
LINE
  8
ITEM_50
  5
19F
 10
89.86393177178106
 20
90.72988379798349
 30
0.0
 11
90.39897183356106
 21
90.03131013808649
 31
0.0
  0
LINE
  8
ITEM_50
  5
1DE
 10
163.9171245660162
 20
90.72988379798349
 30
0.0
 11
163.3820845042363
 21
90.03131013808649
 31
0.0
  0
LINE
  8
ITEM_50
  5
1DF
 10
163.9171245660162
 20
90.72988379798349
 30
0.0
 11
164.4521646277963
 21
90.03131013808652
 31
0.0
  0
LINE
  8
ITEM_50
  5
1E0
 10
163.9171245660162
 20
92.13273647818945
 30
0.0
 11
163.3820845042363
 21
92.83131013808645
 31
0.0
  0
LINE
  8
ITEM_50
  5
1E1
 10
166.2627685083358
 20
90.03131013808652
 30
0.0
 11
166.2627685083358
 21
92.83131013808642
 31
0.0
  0
LINE
  8
ITEM_50
  5
1E2
 10
163.3820845042362
 20
90.03131013808646
 30
0.0
 11
161.4171245656546
 21
90.03131013808646
 31
0.0
  0
LINE
  8
ITEM_50
  5
1E3
 10
166.2627685083358
 20
90.03131013808652
 30
0.0
 11
164.4521646277963
 21
90.03131013808652
 31
0.0
  0
LINE
  8
ITEM_50
  5
1E4
 10
163.3820845042363
 20
92.83131013808645
 30
0.0
 11
159.7171245656533
 21
92.83131013808645
 31
0.0
  0
LINE
  8
ITEM_50
  5
1E5
 10
166.2627685083358
 20
92.83131013808642
 30
0.0
 11
164.4521646277963
 21
92.83131013808645
 31
0.0
  0
LINE
  8
ITEM_50
  5
1E6
 10
163.9171245660162
 20
92.13273647818945
 30
0.0
 11
164.4521646277963
 21
92.83131013808642
 31
0.0
  0
LINE
  8
ITEM_50
  5
1E7
 10
159.7171245656533
 20
92.68131013808289
 30
0.0
 11
159.7171245656533
 21
92.83131013808642
 31
0.0
  0
LINE
  8
0
  5
1E8
 10
165.7171245656537
 20
90.03131013808646
 30
0.0
 11
164.5521646249571
 21
90.03131013808646
 31
0.0
  0
LINE
  8
ITEM_50
  5
1E9
 10
165.7171245656537
 20
87.21080999684518
 30
0.0
 11
165.7171245656537
 21
86.66532472114201
 31
0.0
  0
POLYLINE
  8
ITEM_50
  5
1EA
 66
     1
 10
0.0
 20
0.0
 30
0.0
  0
VERTEX
  8
ITEM_50
  5
1EB
 10
165.7171245656537
 20
86.78131013808649
 30
0.0
  0
VERTEX
  8
ITEM_50
  5
1EC
 10
161.4171245656546
 20
86.78131013808649
 30
0.0
  0
SEQEND
  8
ITEM_50
  5
1ED
  0
LINE
  8
ITEM_50
  5
1EE
 10
161.4171245656546
 20
92.68131013808309
 30
0.0
 11
157.2171245656549
 21
92.68131013808257
 31
0.0
  0
LINE
  8
ITEM_50
  5
1EF
 10
161.4171245656546
 20
84.88131013808308
 30
0.0
 11
161.4171245656546
 21
92.68131013808309
 31
0.0
  0
LINE
  8
ITEM_50
  5
1F0
 10
157.2171245656549
 20
84.88131013808255
 30
0.0
 11
161.4171245656546
 21
84.88131013808308
 31
0.0
  0
ARC
  8
ITEM_50
  5
1F1
 10
152.1171245656546
 20
85.08131013808193
 30
0.0
 40
0.2
 50
180.0
 51
270.0000000000069
  0
ARC
  8
ITEM_50
  5
1F2
 10
152.1171245656546
 20
92.48131013808193
 30
0.0
 40
0.2
 50
90.00000000000707
 51
180.0
  0
LINE
  8
ITEM_50
  5
1F3
 10
156.4171245656549
 20
84.88131013808245
 30
0.0
 11
156.4171245656549
 21
92.68131013808248
 31
0.0
  0
LINE
  8
ITEM_50
  5
1F4
 10
151.9171245656546
 20
85.08131013808193
 30
0.0
 11
151.9171245656546
 21
92.48131013808193
 31
0.0
  0
LINE
  8
ITEM_50
  5
1F5
 10
157.2171245656549
 20
84.88131013808255
 30
0.0
 11
152.1171245656546
 21
84.88131013808192
 31
0.0
  0
LINE
  8
ITEM_50
  5
1F6
 10
157.2171245656549
 20
92.68131013808257
 30
0.0
 11
157.2171245656549
 21
84.88131013808255
 31
0.0
  0
LINE
  8
ITEM_50
  5
1F7
 10
152.1171245656546
 20
92.68131013808194
 30
0.0
 11
157.2171245656549
 21
92.68131013808257
 31
0.0
  0
LINE
  8
ITEM_25
  5
1F8
 10
164.2066926409823
 20
90.35180999684529
 30
0.0
 11
163.6275564910501
 21
90.35180999684529
 31
0.0
  0
LINE
  8
ITEM_50
  5
1F9
 10
165.7171245656537
 20
92.83131013808642
 30
0.0
 11
165.7171245656537
 21
93.03131013808648
 31
0.0
  0
LINE
  8
ITEM_STP
  5
1FA
 10
171.7171245656537
 20
93.78740875797397
 30
0.0
 11
171.7171245656537
 21
83.69246992774425
 31
0.0
  0
LINE
  8
ITEM_50
  5
1FB
 10
165.7171245656537
 20
90.03131013808646
 30
0.0
 11
164.5521646249571
 21
90.03131013808646
 31
0.0
  0
LINE
  8
ITEM_50
  5
1FC
 10
177.7171245656537
 20
84.53131013808646
 30
0.0
 11
165.7171245656537
 21
84.53131013808646
 31
0.0
  0
LINE
  8
ITEM_50
  5
1FD
 10
177.7171245656537
 20
93.03131013808646
 30
0.0
 11
165.7171245656537
 21
93.03131013808646
 31
0.0
  0
LINE
  8
ITEM_50
  5
1FE
 10
165.7171245656537
 20
84.53131013808646
 30
0.0
 11
165.7171245656537
 21
90.03131013808652
 31
0.0
  0
LINE
  8
ITEM_50
  5
1FF
 10
177.7171245656537
 20
84.53131013808646
 30
0.0
 11
177.7171245656537
 21
93.03131013808648
 31
0.0
  0
LINE
  8
ITEM_25
  5
200
 10
165.7171245656537
 20
87.21081013808648
 30
0.0
 11
161.4171245656546
 21
87.21081013808648
 31
0.0
  0
LINE
  8
ITEM_STP
  5
201
 10
151.5300336362334
 20
88.78131013808648
 30
0.0
 11
178.6655709209587
 21
88.78131013808646
 31
0.0
  0
LINE
  8
ITEM_50
  5
204
 10
124.8905281688986
 20
67.58475322981199
 30
0.0
 11
124.8905281688986
 21
66.78475322981199
 31
0.0
  0
LINE
  8
ITEM_50
  5
205
 10
128.8905281688987
 20
67.58475322981199
 30
0.0
 11
128.8905281688986
 21
66.78475322981199
 31
0.0
  0
LINE
  8
ITEM_25
  5
206
 10
125.3195281688986
 20
67.58475322981199
 30
0.0
 11
125.3195281688986
 21
66.78475322981199
 31
0.0
  0
LINE
  8
ITEM_25
  5
207
 10
128.4615281688987
 20
67.58475322981199
 30
0.0
 11
128.4615281688986
 21
66.78475322981199
 31
0.0
  0
ENDSEC
  0
EOF
